行きたい日付からパパッと検索!航空券の最安値が見つかる!

기타큐슈출발
키타큐슈출발

부산도착
김해 국제 공항도착

반대 구간김해 국제 공항출발 키타큐슈도착

출발일에 따라 요금이 변경될 수 있습니다. 달력에서 탑승일을 선택해 주세요.

가는날

2024/5
1------2------3------4------
5------6------7------8------9------10------11------
12------13------14------15------16------17------18------
19------20------21검색시 표시22508,95723492,78324484,26125검색시 표시
26555,91427검색시 표시28검색시 표시29검색시 표시30527,21831584,696
오는날을 선택하세요   출발일 변경

오는날

2024/5
1------2------3------4------
5------6------7------8------9------10------11------
12------13------14------15------16------17------18------
19------20------21------22------23------24------25------
26------27------28------29------30------31------
  가는날을 선택하세요

화폐:원 로드중요금검색재검색

가는날
오는날
총금액(왕복/이코노미석)

※표시된 요금은 실제 검색결과와 다를수 있습니다.

  • 키타큐슈 출발-김해 국제 공항도착

    5월 할인항공권의최저가 요금

    KRW484,261


    해당 요금의 항공사는대한항공입니다.


    달력에서 보기
  • 키타큐슈 출발-김해 국제 공항도착

    6월 할인항공권의최저가 요금

    KRW484,522


    해당 요금의 항공사는대한항공입니다.


    달력에서 보기
  • 키타큐슈 출발-김해 국제 공항도착

    7월 할인항공권의최저가 요금

    KRW484,609


    해당 요금의 항공사는대한항공입니다.


    달력에서 보기
  • 키타큐슈 출발-김해 국제 공항도착

    8월 할인항공권의최저가 요금

    KRW484,696


    해당 요금의 항공사는대한항공입니다.


    달력에서 보기
  • 키타큐슈 출발-김해 국제 공항도착

    9월 할인항공권의최저가 요금

    KRW484,522


    해당 요금의 항공사는대한항공입니다.


    달력에서 보기
  • 기타큐슈출발-부산도착
    항공기의 비행시간

    3 시간 45
  • 기타큐슈 출발-부산도착
    항공사 수

    9
ステータス:
メッセージ1
メッセージ2
メッセージ3
メッセージ4
メッセージ5
メッセージ6
メッセージ7
メッセージ8
メッセージ9
メッセージ10
メッセージ11
メッセージ12
メッセージ13
メッセージ14
$(function() { $('.header_service_menu li').css('width', '50%'); });